+ Reply to Thread
Page 102 of 1525 FirstFirst ... 252921001011021031041121522026021102 ... LastLast
Results 1,011 to 1,020 of 15243
  1. #1011
    Pro Abortion
    Join Date
    Sep 2006
    Posts
    859
    Character
    Maria
    Guild
    Server
    The Bazaar!

    Default Re: Official Calbiyum Spam Post

    Quote Originally Posted by Warling View Post
    ^--

    Right on I was speaking mine.

    On another note dimebags riffs were easy but they grooved, appericate that crazy mother fucker. RIP. :55:
    heh adding in the pinch harmonics and playing it flawlessly isnt an easy task~ but i guess if you're a beginning guitarist and ~kinda~ make it sound like dimebag, sure.

  2. #1012
    Junior Member
    Join Date
    Sep 2006
    Posts
    28
    Character
    Guild
    Server

    Default Re: Official Calbiyum Spam Post

    Quote Originally Posted by maria View Post
    heh adding in the pinch harmonics and playing it flawlessly isnt an easy task~ but i guess if you're a beginning guitarist and ~kinda~ make it sound like dimebag, sure.
    Everyone has their own style so its hard to play anyone elses tab flawlessly. Pinch harmonics has nothing to do with it being hard, but I play bass so thats something alot different. Like I said they were easier riffs to play as even a starting guitarist, but you will never get it done flawlessly. Practice for days you wont get his style down its unique.

  3. #1013
    Pro Abortion
    Join Date
    Sep 2006
    Posts
    859
    Character
    Maria
    Guild
    Server
    The Bazaar!

    Default Re: Official Calbiyum Spam Post

    lols

    you seem very naive

  4. #1014
    Junior Member
    Join Date
    Sep 2006
    Posts
    28
    Character
    Guild
    Server

    Default Re: Official Calbiyum Spam Post

    Quote Originally Posted by maria View Post
    lols

    you seem very naive
    SOLO


    ~~~~~~ ~~~~~~~~~~~~~ ~~~~~~ A.H.~~
    -------------|-------------------|--------------------|----------------------
    -------------|-------------------|--------------------|----------------------
    -------------|-------------------|--------------------|-15---15---15----15---
    -------------|-8---8---8---------|-(8)\/14------(14)\-|---14---14----14------
    -7------(7)\-|---7---7-----------|--------------------|----------------------
    -------------|-------------------|--------------------|----------------------



    ~~~
    ---------|--------------------------------------------------------------------
    ---------|--------------------------------------------------------------------
    ---(15)\-|--------------------------------------------------------------------
    ---------|-------------------------------------11-12-15-11-12-15--------------
    ---------|-------------------11-12-15-11-12-15--------------------------------
    ---------|-11-12-15-11-12-15--------------------------------------------------


    -------------------|-------------------11-12-15p12p11-x-11-12-15p12p11-15p12--
    -------------------|-11-12-15-11-12-15----------------------------------------
    -11-12-15-11-12-15-|----------------------------------------------------------
    -------------------|----------------------------------------------------------
    -------------------|----------------------------------------------------------
    -------------------|----------------------------------------------------------




    ----|
    -15^(1.5)------12-14-17p14p12--12-14-17p14p12--12-14-17p14p12-12-14-17p14p12-
    -----------------------------------------------------------------------------
    -----------------------------------------------------------------------------
    -----------------------------------------------------------------------------
    -----------------------------------------------------------------------------
    -----------------------------------------------------------------------------



    -12h15h19p15p12h15-20p15p12h15-----------------------------------------------
    -------------------------------20p15p12h15p12--------------------------------
    ----------------------------------------------20p15p12h15p12-----------------
    -------------------------------------------------------------20p15p12h15p12--
    -----------------------------------------------------------------------------
    -----------------------------------------------------------------------------


    ~~~~~~ ~~~~~~ --|
    ------------------------|----------------------------|-----------------------
    ------------------------|----------------------------|-15^(1)--(15)^(1)------
    ------------------------|--15----15----15------(15)\-|-----------------------
    14-(14)-------(14)\5/---|-----14----14---------------|-----------------------
    ------------------------|----------------------------|-----------------------
    ------------------------|----------------------------|-----------------------



    ~~~~~~
    -15----------------------18----18----18^(1.5)--(18)\--------|----------------
    ---15^(1)-----(15)\8/-17----17----17------------------------|----------------
    -------------------------------------------------------7/14-|----------------
    ------------------------------------------------------------|----------------
    ------------------------------------------------------------|----------------
    ------------------------------------------------------------|----------------




    -----------------------------------------------------------------------------
    -12---------------12----------------12---------------12----------------------
    ---15-14-12-14-15----15-14-12-14-15---15-14-12-14-15---15-14-12-14-15--------
    -----------------------------------------------------------------------------
    -----------------------------------------------------------------------------
    -----------------------------------------------------------------------------



    A.H. ~~
    ------------------------------14^(1)--|-12-14-------12-15------12-15----------
    -12^(1/4)-12^(1/4)--------------------|-------15^(1)-----15^(1)-----15^(1)----
    -12^(1/4)-12^(1/4)--------------------|---------------------------------------
    -------------------14-12h14-----------|---------------------------------------
    --------------------------------------|---------------------------------------
    --------------------------------------|---------------------------------------

    -| ~~~~
    -12-----------------------|--------------15---------19-------20------21-------
    ---14^(1/2)-(14)p12-------|--------11/12---12-12/15----15/17----17/18--18/19--
    -------------------14^(1)-|-(14)\---------------------------------------------
    --------------------------|---------------------------------------------------
    --------------------------|---------------------------------------------------
    --------------------------|---------------------------------------------------

    tell me how this takes any skill at all, im curious.

    ps- .h - hammer
    p - pull off

    ~~~ - vibrato

    ^ - indicates bend (followed by a number in parentheses indicating magnitude
    of bend - i.e. ^(1.5) indicates bend up one and a-half
    steps)

    A.H. - artificial harmonic

    P.M. - palm mute

    Just a random solo by him, its good music but your naive to think his shit takes a large ammount of skill to play.

  5. #1015
    Pro Abortion
    Join Date
    Sep 2006
    Posts
    859
    Character
    Maria
    Guild
    Server
    The Bazaar!

    Default Re: Official Calbiyum Spam Post

    yes i guess i was right
    you are naive

    how does it take any skill? lol well~ any person whos been playing gutair for 2 weeks has pretty much no skill, so are you saying they should be able to play it? well probally not, but you're still a fucking retard

    i can snag any solo thats simple and easy to play and post it too~ weee.
    any sense, play the art of shredding =) properlly, granted i dont think its that hard of a song personally, but whatever

    all im saying is dimebag was a talneted and orignal fucker. but for some reason you needed to post a solo and be like
    omg kekek lar~ howS this hardz?!! i can plai it with my dick fagtardzz~~
    /sigh
    stop posting here plz

  6. #1016
    Mystics Taste Better~
    Join Date
    Nov 2006
    Posts
    194
    Character
    Guild
    Server

    Default Re: Official Calbiyum Spam Post




    MOOGLES FOREVER

  7. #1017
    Gnomes > Esar
    Join Date
    Sep 2006
    Posts
    599
    Character
    Guild
    Server

    Default Re: Official Calbiyum Spam Post

    /bump for moogle factor
    Schmoogles - Retired

  8. #1018
    endless waltz
    Join Date
    Sep 2006
    Posts
    2,893
    Character
    Madcap
    Guild
    Server
    Mistmoore

    Default Re: Official Calbiyum Spam Post

    Quote Originally Posted by carli View Post
    i want to be that moogle.

  9. #1019
    Mystics Taste Better~
    Join Date
    Nov 2006
    Posts
    194
    Character
    Guild
    Server

    Default Re: Official Calbiyum Spam Post

    Quote Originally Posted by kyros View Post
    i want to be that moogle.
    ya that pic is so cute. i love it

  10. #1020
    Pro Abortion
    Join Date
    Sep 2006
    Posts
    859
    Character
    Maria
    Guild
    Server
    The Bazaar!

    Default Re: Official Calbiyum Spam Post

    Quote Originally Posted by kyros View Post
    i want to be that moogle.
    the one in the moogle costume?
    lol i always wondered about you

Posting Permissions

  • You may not post new threads
  • You may not post replies
  • You may not post attachments
  • You may not edit your posts

Sponsor Ads